replace this sentence with google ad-sense advertisement code

Hey Moharaj Chords


Video Not Available

Lyrics Info

Hey Moharaj Chords

Song Title:Hey Moharaj Chords
Artist: Warfaze
Album: Moharaj
Genre:
Composer:
Release year:

Other Info

Lyrics by

Submitter:akfara
Date:12/05/2008 11:43 am
Views Today:0
Total Views:5239

Title : Moharaj
Artist: Balam
Band : Warfaze
Album : Moharaj


[Intro Riff]
E||---------------------|----------------------|---------------------|
B||---------------------|----------------------|---------------------|
G||---------------------|----------------------|---------------------|
D||---------------------|----------5--4-------|---------------------|
A||---7----5----5h-7--|----7----------5h-7-|---7----5----5h-7--|
E||--5------------------|--5------------------|--5------------------|


|----------------------||---------------------|----------------------|
|----------------------||---------------------|----------------------|
|----------------------||---------------------|----------------------|
|----------------------||---------------------|----------5--4-------|
|-----7---3--2--------||----7---5----5h-7--|-----7--------5h-7b-|
|--5-----------5p-3--||--5------------------|--5-------------------|


|---------------------|----------------------|
|---------------------|----------------------|
|---------------------|----------------------|
|---------------------|----------------------|
|---7----5----5h-7--|-----7----3--2-------|
|-5-------------------|--5-----------5p-3--|

*2nd time bend in(5h-7b)

[Verse]
|---------------------------|------------------------|
|---------------------------|------------------------|
|---------------------------|------------------------|
|--7--x--7----7--7--x--7--|--7-------5--4---------|
|--7--x--7----7--7--x--7--|--7-------------5h-7---|
|--5--x--5----5--5--x--5--|--5--------------------|
Shomaj shikhore aaj tumi eka

|----------------------------|------------------------||
|----------------------------|------------------------||
|----------------------------|------------------------||
|--7--x--7----7--7--x--7--|-------------------------||
|--7--x--7----7--7--x--7--|--3----5----3--2-------||
|--5--x--5----5--5--x--5--|--1----3----------5p-3-||
Rikto kamonai ohomer mayajale



Shokol valobasha podolito kore
Manobotar joto bondhon chire fele (Same)............(2x)

[Bridge]{I'm kinda confuse with these chords,will try to fix it nxt whenever i get time.}

F5-------------C5--------------
Tobuo tar niom mene hat tule
----G5------------------F5--
Jonotake bedonai vashale
F5-------------C5--------------
Khomotar pechone jader smriti
E5-------------A5----------
Oboshoreo ki pore mone..

[Chorus]

A5---

|----------------------|------------------------||
|----------------------|------------------------||
|----------------------|------------------------||
|--7--x--7----7--7---|------------------------||
|--7--x--7----7--7---|--3----5----3--2-------||
|--5--x--5----5--5---|--1----3----------5p-3-||
Hey moharaj [ Esho amader shomotole]
A5--

|----------------------|------------------------||
|----------------------|------------------------||
|----------------------|------------------------||
|--7--x--7----7--7---|------------------------||
|--7--x--7----7--7---|--3----5----3--2-------||
|--5--x--5----5--5---|--1----3----------5p-3-||
Pabe jibon [Jake bohudur gecho fele]
A5--

|----------------------|------------------------||
|----------------------|------------------------||
|----------------------|------------------------||
|--7--x--7----7--7---|------------------------||
|--7--x--7----7--7---|--3----5----3--2-------||
|--5--x--5----5--5---|--1----3----------5p-3-||
Prane joar [Ache jonotar e bhubone]
G5-A5-B5-C5-
Hey moharaaaaaaaaaaaaj

[Bridge 2]

Tomar dupashe mithye gunobahi
Debe ki bhadhar asha jonotar a nirole
Ete ki jonogon aj pother kata
Jara tomai valobesheche mone prane

[Repeat ]
[Repeat Chorus (Whishpering)]
[Repeat chorus]
End with...........Hey Moharaj

এই গানের বাংলা লিরিক্স পাওয়া যায়নি।

সাবমিট বাংলা লিরিক্স

Signup



replace this sentence with google ad-sense advertisement code
replace this sentence with google ad-sense advertisement code or delete this sentence
Develop: PlusParticle by @CoderSaiful